Tuesday, October 12, 2010

Fire - Pointer Sisters intro TAB for guitar

Another quicky to get you started, the intro of Fire.

E ----------------------
B -------------------7--
G -------------------7--
D ----------------------
A -5--5--5--5--5--5-----
E -----77-------77------

Wednesday, September 29, 2010

Guns N' Roses, Sweet Child Of Mine guitar intro TAB

Here are the very first beats played by slash. Play each part twice. Impressive piece of music.
-------------14----13----
-------------------------
----13-11-10----13---13--
-11----------------------
-------------------------
-------------------------

-------------14----13----
-------------------------
----13-11-10----13---13--
-13----------------------
-------------------------
-------------------------

-------------14----13----
-------------------------
-11-13-11-10----13---13--
-------------------------
-------------------------
-------------------------


If you tune your guitar from E to D# (like how this song is actually played) move everything up 1 semitone.